Tablaturas de Jordan

Ir abajo

Tablaturas de Jordan

Mensaje por masi_jordan el Vie 1 Ago - 13:32

Vamos a tener nuestra seccion para ver si alguien saca los temas de jordan, asi que aca dejo una tablatura que obviamente me la robe de otro foro, pero si alguien tiene otra pa compartir, bienvenido sea...

Jordan - Viviendo diferente

Código:

1º||----------------|----------------|----------------|----------------|
2º||----------------|----------------|----------------|----------------|
3º||--6-6--6-6------|--6-6--6-6------|--9-9--9-9------|--9-9--9-9------|
4º||--6-6--6-6------|--6-6--6-6------|--9-9--9-9------|--9-9--9-9------|
5º||--4-4--4-4------|--4-4--4-4------|--7-7--7-7------|--7-7--7-7------|
6º||--4-4--4-4------|--4-4--4-4------|--5-5--5-5------|--5-5--5-5------|

Estrofa
--------------------|--------------------|--------------------|--------------------|
--------------------|--------------------|--------------------|--------------------|
-9------9------9----|-9-------9-----9----|-8-------8-----8----|-8------8------8----|
-9---9------9-----9-|-9----9-----9-----9-|-9----9------9----9-|-9---9------9-----9-|
--------------------|--------------------|--------------------|--------------------|
--------------------|--------------------|--------------------|--------------------|

--------------------|--------------------|--------------------|--------------------|
--------------------|--------------------|--------------------|--------------------|
-9------9------9----|-9-------9------9---|-8------8------8----|-8------8------8----|
-9---9------9-----9-|-9---9------9-----9-|-9---9------9-----9-|-9---9------9-----9-|
--------------------|--------------------|--------------------|--------------------|
--------------------|--------------------|--------------------|--------------------|

--------------------|--------------------|--------------------|--------------------|
--------------------|--------------------|--------------------|--------------------|
-9------9-----11----|-9------9-----11----|-8------8------9----|-8------8------9----|
-9---9-----9------9-|-9---9-----9------9-|-9---9------9-----9-|-9---9-----9------9-|
--------------------|--------------------|--------------------|--------------------|
--------------------|--------------------|--------------------|--------------------|

---------------------------|----------------------------|
---------------------------|----------------------------|
-6-6--6-6--6-6--6-6--6--6--|--6-6--6-6--6-6--6-6--6--6--|
-6-6--6-6--6-6--6-6--6--6--|--6-6--6-6--6-6--6-6--6--6--|
-4-4--4-4--4-4--4-4--4--4--|--4-4--4-4--4-4--4-4--4--4--|
-4-4--4-4--4-4--4-4--4--4--|--4-4--4-4--4-4--4-4--4--4--|

---------------------------|----------------------------|
---------------------------|----------------------------|
-9-9--9-9--9-9--9-9--9--9--|--9-9--9-9--9-9--9-9--9--9--|
-9-9--9-9--9-9--9-9--9--9--|--9-9--9-9--9-9--9-9--9--9--|
-7-7--7-7--7-7--7-7--7--7--|--7-7--7-7--7-7--7-7--7--7--|
-5-5--5-5--5-5--5-5--5--5--|--5-5--5-5--5-5--5-5--5--5--|

Estribillo
(C#m - B - A - E F#) x2

Estrofa
----------------------------|----------------------------|
----------------------------|----------------------------|
--6-6--6-6--6-6--6-6--9-----|--6-6--6-6--6-6--6-6--9-----|
--6-6--6-6--6-6--6-6-----9--|--6-6--6-6--6-6--6-6-----9--|
--4-4--4-4--4-4--4-4--------|--4-4--4-4--4-4--4-4--------|
--4-4--4-4--4-4--4-4--------|--4-4--4-4--4-4--4-4--------|

----------------------------|----------------------------|
----------------------------|----------------------------|
--9-9--9-9--9-9--9-9--9-----|--9-9--9-9--9-9--9-9--9-----|
--9-9--9-9--9-9--9-9-----9--|--9-9--9-9--9-9--9-9-----9--|
--7-7--7-7--7-7--7-7--------|--7-7--7-7--7-7--7-7--------|
--5-5--5-5--5-5--5-5--------|--5-5--5-5--5-5--5-5--------|

----------------------------|----------------------------|
----------------------------|----------------------------|
--6-6--6-6--6-6--6-6--6--6--|--6-6--6-6--6-6--6-6--6--6--|
--6-6--6-6--6-6--6-6--6--6--|--6-6--6-6--6-6--6-6--6--6--|
--4-4--4-4--4-4--4-4--4--4--|--4-4--4-4--4-4--4-4--4--4--|
--4-4--4-4--4-4--4-4--4--4--|--4-4--4-4--4-4--4-4--4--4--|

----------------------------|----------------------------|
----------------------------|----------------------------|
--9-9--9-9--9-9--9-9--9--9--|--9-9--9-9--9-9--9-9--9--9--|
--9-9--9-9--9-9--9-9--9--9--|--9-9--9-9--9-9--9-9--9--9--|
--7-7--7-7--7-7--7-7--7--7--|--7-7--7-7--7-7--7-7--7--7--|
--5-5--5-5--5-5--5-5--5--5--|--5-5--5-5--5-5--5-5--5--5--|

Solo guitarra
------------------------------------------|-----------------------------------|
------------------------------------------|-----------------------------------|
----9----13----9----14----9----13----9----|-14---8---9---8---11---8---9---8---|
-11---11----11---11----11---11----11---11-|----9---9---9---9----9---9---9---9-|
------------------------------------------|-----------------------------------|
------------------------------------------|-----------------------------------|

------------------------------------|-----------------------------------|
------------------------------------|-----------------------------------|
--11---6---8---6---9---6---8---6----|--9---6---8---6---9---6---8---6----|
-----7---7---7---7---7---7---7---7--|----6---6---6---6---6---6---6---6--|
------------------------------------|-----------------------------------|
------------------------------------|-----------------------------------|

--------------------------------------------|-----------------------------------|
--------------------------------------------|-----------------------------------|
-9----9----13----9----14----9----13----9----|-14---8---9---8---11---8---9---8---|
---11---11----11---11----11---11----11---11-|----9---9---9---9----9---9---9---9-|
--------------------------------------------|-----------------------------------|
--------------------------------------------|-----------------------------------|

------------------------------------|----------------------------------|
------------------------------------|----------------------------------|
--11---6---8---6---9---6---8---6----|--9---6---8---6---9---6---8---6---|
-----7---7---7---7---7---7---7---7--|----6---6---6---6---6---6---6---6-|
------------------------------------|----------------------------------|
------------------------------------|----------------------------------|

Estribillo

Puente
----------------------------------| ------------------------------|
----------------------------------| ------------------------------|
--6-6--6-6--6-6-----------9-9-----| x2 --9-9--9-9--9-9--------8-8----| x2
--6-6--6-6--6-6--11-11-11-----11--| --9-9--9-9--9-9--9-9-9-----9--|
--4-4--4-4--4-4-------------------| --7-7--7-7--7-7---------------|
--4-4--4-4--4-4-------------------| --5-5--5-5--5-5---------------|

-----------------------------------|-----------------------------------|
-----------------------------------|-----------------------------------|
--6-6--6-6--6-6-----------13-13----|--6-6--6-6--6-6-----------14-14----|
--6-6--6-6--6-6--11-11-11-------11-|--6-6--6-6--6-6--11-11-11-------11-|
--4-4--4-4--4-4--------------------|--4-4--4-4--4-4--------------------|
--4-4--4-4--4-4--------------------|--4-4--4-4--4-4--------------------|

------------------------------|
------------------------------|
--9-9--9-9--9-9--------8-8----| x2
--9-9--9-9--9-9--9-9-9-----9--|
--7-7--7-7--7-7---------------|
--5-5--5-5--5-5---------------|

-----------------------|-------------------------|----------------------|
-----------------------|-------------------------|----------------------|
-9------9-------13-----|-9--------9--------13----|-8------8-------9-----|
----11------11------11-|-----11-------11------11-|-----9-------9-----9--|
----11------11---------|-----11-------11---------|-----9-------9-----9--|
-----------------------|-------------------------|----------------------|

-----------------------|-------------------------|----------------------|
-----------------------|-------------------------|----------------------|
-8-------8-------9-----|-9--------9-------13-----|-9------9-------13----|
------9-------9-----9--|------11------11------11-|----11------11-----11-|
------9-------9-----9--|------11------11---------|----11------11--------|
-----------------------|-------------------------|----------------------|

-----------------------|-------------------------|
-----------------------|-------------------------|
-8-------8-------9-----|--9-9--9-9--9-9----------|
------9-------9-----9--|--9-9--9-9--9-9----------|
------9-------9-----9--|--7-7--7-7--7-7----------|
-----------------------|--5-5--5-5--5-5----------|

Estribillo + Final
(C#m - B - A - E F#) x3

En la segunda vuelta, la otra viola comienza a tirar octavas

Sobre el C#m
------------------------------|
------------------------------|
--6--6--6-6-6-8--8-8-9--9-9-9-|
--x--x--x-x-x-x--x-x-x--x-x-x-|
--4--4--4-4-4-6--6-6-7--7-7-7-|
------------------------------|

Sobre el resto
-----------------------------|
-----------------------------|
--14--14--14-14-14-13--13-13-|
---x---x---x--x--x--x---x--x-|
--12--12--12-12-12-11--11-11-|
-----------------------------|

Y en la tercera tira la outro
--------------------------------------------|
--------------------------------------------|
------9----13----9----14----9----13----9----|
---11---11----11---11----11---11----11---11-|
--------------------------------------------|
--------------------------------------------|

------------------------------------|-----------------------------------|
------------------------------------|-----------------------------------|
--14---8---9---8---11---8---9---8---|--11---6---8---6---9---6---8---6---|
-----9---9---9---9----9---9---9---9-|-----7---7---7---7---7---7---7---7-|
------------------------------------|-----------------------------------|
------------------------------------|-----------------------------------|

-----------------------------------|-------||
-----------------------------------|-------||
--9---6---8---6---9---6---11---6---|--9----||
----6---6---6---6---6---6----6---6-|-------||
-----------------------------------|-------||
-----------------------------------|-------||

masi_jordan

Mensajes : 9
Fecha de inscripción : 01/08/2008
Edad : 29
Localización : quilmes

Ver perfil de usuario http://www.fotolog.com/emo_is_yours

Volver arriba Ir abajo

Re: Tablaturas de Jordan

Mensaje por pablo.shaila el Vie 1 Ago - 13:57

yo siempre saco las iontroducciones,, y no da subir el tema imcompleto xD

_________________


Mi Floog Deviantart
avatar
pablo.shaila
Admin

Mensajes : 1216
Fecha de inscripción : 16/07/2008
Edad : 29

Ver perfil de usuario

Volver arriba Ir abajo

Re: Tablaturas de Jordan

Mensaje por masi_jordan el Vie 1 Ago - 13:58

pablo.shaila escribió:yo siempre saco las iontroducciones,, y no da subir el tema imcompleto xD

robate los temas de otross lados y subilos aca xD

masi_jordan

Mensajes : 9
Fecha de inscripción : 01/08/2008
Edad : 29
Localización : quilmes

Ver perfil de usuario http://www.fotolog.com/emo_is_yours

Volver arriba Ir abajo

Re: Tablaturas de Jordan

Mensaje por viejazesperanzas el Vie 1 Ago - 15:59

Ui que copado eso, yo voi a buscar una guitarra xD
avatar
viejazesperanzas

Mensajes : 392
Fecha de inscripción : 23/07/2008
Edad : 26
Localización : Zona sur

Ver perfil de usuario http://www.fotolog.com/viejazesperanzas

Volver arriba Ir abajo

Re: Tablaturas de Jordan

Mensaje por piwii el Vie 1 Ago - 20:17

jajaj yo había pensado en hacer un topic así pero dije "naa me van a mandar a cagar"
desp subo alguuna tab con acordes, no sé si alguien toka el bajo acá, aunke ESAS tab no hago porke yo no xD
avatar
piwii

Mensajes : 719
Fecha de inscripción : 20/07/2008
Edad : 26
Localización : Paranáa, viejii (H

Ver perfil de usuario http://www.fotolog.com/recontrapiwi2

Volver arriba Ir abajo

Re: Tablaturas de Jordan

Mensaje por pablo.shaila el Vie 1 Ago - 20:33

el que toca el bajo es masi jordan

_________________


Mi Floog Deviantart
avatar
pablo.shaila
Admin

Mensajes : 1216
Fecha de inscripción : 16/07/2008
Edad : 29

Ver perfil de usuario

Volver arriba Ir abajo

Re: Tablaturas de Jordan

Mensaje por piwii el Vie 1 Ago - 20:42

y nadie má, vieji ? vaamo che, pónganse las pilas con la musicalidad (?)
avatar
piwii

Mensajes : 719
Fecha de inscripción : 20/07/2008
Edad : 26
Localización : Paranáa, viejii (H

Ver perfil de usuario http://www.fotolog.com/recontrapiwi2

Volver arriba Ir abajo

Re: Tablaturas de Jordan

Mensaje por pablo.shaila el Vie 1 Ago - 21:47

que mas queres, masi toca la guitarra y el bajo, yo toco la guitarra y el piano,, q se yo lo demas ni idea se q cristian toca la viola,, pero = ,, q se yo, vos q tocaS?

_________________


Mi Floog Deviantart
avatar
pablo.shaila
Admin

Mensajes : 1216
Fecha de inscripción : 16/07/2008
Edad : 29

Ver perfil de usuario

Volver arriba Ir abajo

Re: Tablaturas de Jordan

Mensaje por piwii el Vie 1 Ago - 23:49

la kena uuuhuhu no ese es antoniano :p yo la viola, se muy poco de bajo, y el úniko piano ke toké es el piano de percusión xP waesweeaasw ke se metan los de jordan y suban ellos :p ahre xD
avatar
piwii

Mensajes : 719
Fecha de inscripción : 20/07/2008
Edad : 26
Localización : Paranáa, viejii (H

Ver perfil de usuario http://www.fotolog.com/recontrapiwi2

Volver arriba Ir abajo

Re: Tablaturas de Jordan

Mensaje por Admin el Sáb 2 Ago - 0:11

bardie u.u


Última edición por Admin el Sáb 2 Ago - 14:25, editado 1 vez

Admin
Admin

Mensajes : 940
Fecha de inscripción : 15/07/2008
Edad : 27
Localización : lanus-us

Ver perfil de usuario http://buscandoelclima.forosactivos.net

Volver arriba Ir abajo

Re: Tablaturas de Jordan

Mensaje por pablo.shaila el Dom 3 Ago - 13:17

ajjaja edita cuando quieras xD

_________________


Mi Floog Deviantart
avatar
pablo.shaila
Admin

Mensajes : 1216
Fecha de inscripción : 16/07/2008
Edad : 29

Ver perfil de usuario

Volver arriba Ir abajo

Re: Tablaturas de Jordan

Mensaje por chinomc el Vie 8 Ago - 22:41

q bueno, q grande

estariqa hacerlas en guitar pro

yo voy a intentar, pero todavia no lo domino bien el programa :S

muchas gracias




EL CHINO
avatar
chinomc

Mensajes : 3
Fecha de inscripción : 08/08/2008

Ver perfil de usuario

Volver arriba Ir abajo

Re: Tablaturas de Jordan

Mensaje por pablo.shaila el Vie 8 Ago - 22:45

staria peola,, pero hay que sacar el bajo y la bata,, y la bata en el Guitar es un quiloooombo maly si no sabes de partituras (osea algo minimo,, como es la duracion de cada nota) en fin,, taria peola,, pero hay uqe hacerlo bien..

_________________


Mi Floog Deviantart
avatar
pablo.shaila
Admin

Mensajes : 1216
Fecha de inscripción : 16/07/2008
Edad : 29

Ver perfil de usuario

Volver arriba Ir abajo

Re: Tablaturas de Jordan

Mensaje por foxy lady el Dom 10 Ago - 22:10

pero komo la voy a viciar kon esto!! suban mas canciones mierda!!!!
avatar
foxy lady

Mensajes : 181
Fecha de inscripción : 29/07/2008
Edad : 29
Localización : longchamps

Ver perfil de usuario http://fotolog.com/mipropiavida

Volver arriba Ir abajo

Re: Tablaturas de Jordan

Mensaje por NaHwIz nihilismO el Mar 19 Ago - 21:59

yo soy batero...

si kieren subo partituras para bata con todos los contratiempos (?)

naa..

coso... toco la viola tambien.. pero sacando de oido soy malisimo (N)

asi ke este thread re garpa para gente como yo dumb
avatar
NaHwIz nihilismO

Mensajes : 20
Fecha de inscripción : 19/08/2008
Edad : 27

Ver perfil de usuario http://fotolog.com/nihilismo__punk

Volver arriba Ir abajo

Re: Tablaturas de Jordan

Mensaje por piwii el Mar 19 Ago - 23:57

noooo el guitar proo es un kilomboo xD
yo lo abandoné, sinceramente no puedo jajaja
aparte odio las partituras, las oodiio ¬¬
aguante todo en 4/4 en negras jajajajajaja re cavernícola
tan tan tan tan tan tan tan tan ♪
avatar
piwii

Mensajes : 719
Fecha de inscripción : 20/07/2008
Edad : 26
Localización : Paranáa, viejii (H

Ver perfil de usuario http://www.fotolog.com/recontrapiwi2

Volver arriba Ir abajo

Re: Tablaturas de Jordan

Mensaje por Contenido patrocinado


Contenido patrocinado


Volver arriba Ir abajo

Volver arriba

- Temas similares

 
Permisos de este foro:
No puedes responder a temas en este foro.